ISO-10303-21;
HEADER;
FILE_DESCRIPTION (( 'STEP AP203' ),
    '1' );
FILE_NAME ('9921H910.STEP',
    '2023-02-10T10:01:56',
    ( '' ),
    ( '' ),
    'SwSTEP 2.0',
    'SolidWorks 2020',
    '' );
FILE_SCHEMA (( 'CONFIG_CONTROL_DESIGN' ));
ENDSEC;

DATA;
#1 = CC_DESIGN_APPROVAL ( #43, ( #45 ) ) ;
#2 = EDGE_LOOP ( 'NONE', ( #75 ) ) ;
#3 = EDGE_CURVE ( 'NONE', #40, #40, #17, .T. ) ;
#4 = PERSON_AND_ORGANIZATION ( #171, #100 ) ;
#5 = APPROVAL_ROLE ( '' ) ;
#6 = VERTEX_POINT ( 'NONE', #18 ) ;
#7 = APPROVAL_ROLE ( '' ) ;
#8 = APPROVAL_PERSON_ORGANIZATION ( #4, #151, #5 ) ;
#9 = APPROVAL_STATUS ( 'not_yet_approved' ) ;
#10 = ORIENTED_EDGE ( 'NONE', *, *, #146, .T. ) ;
#11 = PERSON_AND_ORGANIZATION ( #171, #100 ) ;
#12 = ORIENTED_EDGE ( 'NONE', *, *, #82, .F. ) ;
#13 = APPROVAL_DATE_TIME ( #92, #43 ) ;
#14 = CYLINDRICAL_SURFACE ( 'NONE', #142, 10.50000000000000000 ) ;
#15 = AXIS2_PLACEMENT_3D ( 'NONE', #94, #118, #175 ) ;
#16 = CARTESIAN_POINT ( 'NONE',  ( 0.000000000000000000, 14.99999999999999645, -10.50000000000000000 ) ) ;
#17 = CIRCLE ( 'NONE', #115, 35.00000000000002842 ) ;
#18 = CARTESIAN_POINT ( 'NONE',  ( 0.000000000000000000, 1615.000000000000000, -10.50000000000000000 ) ) ;
#19 = CARTESIAN_POINT ( 'NONE',  ( 0.000000000000000000, 0.000000000000000000, 0.000000000000000000 ) ) ;
#20 = CC_DESIGN_PERSON_AND_ORGANIZATION_ASSIGNMENT ( #169, #139, ( #72 ) ) ;
#21 = LOCAL_TIME ( 11, 1, 56.00000000000000000, #145 ) ;
#22 = DATE_AND_TIME ( #59, #111 ) ;
#23 = DIRECTION ( 'NONE',  ( 0.000000000000000000, -0.000000000000000000, 1.000000000000000000 ) ) ;
#24 = APPROVAL_STATUS ( 'not_yet_approved' ) ;
#25 = ORIENTED_EDGE ( 'NONE', *, *, #82, .T. ) ;
#26 = CARTESIAN_POINT ( 'NONE',  ( 0.000000000000000000, 0.000000000000000000, 0.000000000000000000 ) ) ;
#27 = DIRECTION ( 'NONE',  ( 0.000000000000000000, 0.000000000000000000, -1.000000000000000000 ) ) ;
#28 = FACE_BOUND ( 'NONE', #149, .T. ) ;
#29 = AXIS2_PLACEMENT_3D ( 'NONE', #112, #124, #166 ) ;
#30 = CALENDAR_DATE ( 2023, 10, 2 ) ;
#31 = AXIS2_PLACEMENT_3D ( 'NONE', #150, #126, #87 ) ;
#32 = SECURITY_CLASSIFICATION_LEVEL ( 'unclassified' ) ;
#33 = DIRECTION ( 'NONE',  ( 0.000000000000000000, 0.000000000000000000, -1.000000000000000000 ) ) ;
#34 = PERSON_AND_ORGANIZATION ( #171, #100 ) ;
#35 = ORIENTED_EDGE ( 'NONE', *, *, #146, .F. ) ;
#36 = FACE_OUTER_BOUND ( 'NONE', #98, .T. ) ;
#37 = CC_DESIGN_APPROVAL ( #151, ( #68 ) ) ;
#38 = DIRECTION ( 'NONE',  ( 0.000000000000000000, 0.000000000000000000, -1.000000000000000000 ) ) ;
#39 = APPLICATION_CONTEXT ( 'configuration controlled 3d designs of mechanical parts and assemblies' ) ;
#40 = VERTEX_POINT ( 'NONE', #123 ) ;
#41 =( NAMED_UNIT ( * ) PLANE_ANGLE_UNIT ( ) SI_UNIT ( $, .RADIAN. ) );
#42 = DATE_TIME_ROLE ( 'creation_date' ) ;
#43 = APPROVAL ( #24, 'NON SPECIFICATO' ) ;
#44 = CC_DESIGN_DATE_AND_TIME_ASSIGNMENT ( #22, #42, ( #68 ) ) ;
#45 = PRODUCT_DEFINITION_FORMATION_WITH_SPECIFIED_SOURCE ( 'TUTTO', '', #72, .NOT_KNOWN. ) ;
#46 = DIRECTION ( 'NONE',  ( -0.000000000000000000, -1.000000000000000000, -0.000000000000000000 ) ) ;
#47 = FACE_OUTER_BOUND ( 'NONE', #160, .T. ) ;
#48 = APPROVAL ( #9, 'NON SPECIFICATO' ) ;
#49 = PERSON_AND_ORGANIZATION ( #171, #100 ) ;
#50 = CARTESIAN_POINT ( 'NONE',  ( 0.000000000000000000, 15.00000000000000000, 0.000000000000000000 ) ) ;
#51 = FACE_OUTER_BOUND ( 'NONE', #96, .T. ) ;
#52 = AXIS2_PLACEMENT_3D ( 'NONE', #162, #134, #64 ) ;
#53 = PLANE ( 'NONE',  #155 ) ;
#54 = APPROVAL_STATUS ( 'not_yet_approved' ) ;
#55 = DIRECTION ( 'NONE',  ( 0.000000000000000000, -0.000000000000000000, 1.000000000000000000 ) ) ;
#56 = CIRCLE ( 'NONE', #108, 35.00000000000002842 ) ;
#57 = DATE_AND_TIME ( #88, #77 ) ;
#58 = PERSON_AND_ORGANIZATION_ROLE ( 'creator' ) ;
#59 = CALENDAR_DATE ( 2023, 10, 2 ) ;
#60 = ADVANCED_FACE ( 'NONE', ( #36 ), #93, .T. ) ;
#61 = EDGE_LOOP ( 'NONE', ( #10 ) ) ;
#62 = PERSON_AND_ORGANIZATION_ROLE ( 'classification_officer' ) ;
#63 = CC_DESIGN_PERSON_AND_ORGANIZATION_ASSIGNMENT ( #34, #58, ( #45 ) ) ;
#64 = DIRECTION ( 'NONE',  ( 0.000000000000000000, 0.000000000000000000, -1.000000000000000000 ) ) ;
#65 = AXIS2_PLACEMENT_3D ( 'NONE', #71, #67, #55 ) ;
#66 =( LENGTH_UNIT ( ) NAMED_UNIT ( * ) SI_UNIT ( .MILLI., .METRE. ) );
#67 = DIRECTION ( 'NONE',  ( 0.000000000000000000, 1.000000000000000000, 0.000000000000000000 ) ) ;
#68 = PRODUCT_DEFINITION ( 'NON CONOSCIUTO', '', #45, #156 ) ;
#69 = CARTESIAN_POINT ( 'NONE',  ( 0.000000000000000000, 0.000000000000000000, 0.000000000000000000 ) ) ;
#70 = MECHANICAL_CONTEXT ( 'NONE', #90, 'mechanical' ) ;
#71 = CARTESIAN_POINT ( 'NONE',  ( 35.00000000000002842, 14.99999999999999822, 0.000000000000000000 ) ) ;
#72 = PRODUCT ( '9921H910', '9921H910', '', ( #70 ) ) ;
#73 = PERSON_AND_ORGANIZATION_ROLE ( 'design_supplier' ) ;
#74 = CALENDAR_DATE ( 2023, 10, 2 ) ;
#75 = ORIENTED_EDGE ( 'NONE', *, *, #3, .F. ) ;
#76 = PRODUCT_RELATED_PRODUCT_CATEGORY ( 'detail', '', ( #72 ) ) ;
#77 = LOCAL_TIME ( 11, 1, 56.00000000000000000, #109 ) ;
#78 = CYLINDRICAL_SURFACE ( 'NONE', #52, 35.00000000000002842 ) ;
#79 = ORIENTED_EDGE ( 'NONE', *, *, #133, .T. ) ;
#80 = LOCAL_TIME ( 11, 1, 56.00000000000000000, #154 ) ;
#81 = VERTEX_POINT ( 'NONE', #16 ) ;
#82 = EDGE_CURVE ( 'NONE', #6, #6, #85, .T. ) ;
#83 = DIRECTION ( 'NONE',  ( 0.000000000000000000, 0.000000000000000000, -1.000000000000000000 ) ) ;
#84 = CC_DESIGN_PERSON_AND_ORGANIZATION_ASSIGNMENT ( #143, #73, ( #45 ) ) ;
#85 = CIRCLE ( 'NONE', #15, 10.50000000000000000 ) ;
#86 = CC_DESIGN_SECURITY_CLASSIFICATION ( #95, ( #45 ) ) ;
#87 = DIRECTION ( 'NONE',  ( 0.000000000000000000, 0.000000000000000000, -1.000000000000000000 ) ) ;
#88 = CALENDAR_DATE ( 2023, 10, 2 ) ;
#89 =( GEOMETRIC_REPRESENTATION_CONTEXT ( 3 ) GLOBAL_UNCERTAINTY_ASSIGNED_CONTEXT ( ( #91 ) ) GLOBAL_UNIT_ASSIGNED_CONTEXT ( ( #66, #41, #141 ) ) REPRESENTATION_CONTEXT ( 'NONE', 'WORKASPACE' ) );
#90 = APPLICATION_CONTEXT ( 'configuration controlled 3d designs of mechanical parts and assemblies' ) ;
#91 = UNCERTAINTY_MEASURE_WITH_UNIT (LENGTH_MEASURE( 1.000000000000000082E-05 ), #66, 'distance_accuracy_value', 'NONE');
#92 = DATE_AND_TIME ( #30, #128 ) ;
#93 = PLANE ( 'NONE',  #136 ) ;
#94 = CARTESIAN_POINT ( 'NONE',  ( 0.000000000000000000, 1615.000000000000000, 0.000000000000000000 ) ) ;
#95 = SECURITY_CLASSIFICATION ( '', '', #32 ) ;
#96 = EDGE_LOOP ( 'NONE', ( #106 ) ) ;
#97 = DIRECTION ( 'NONE',  ( 0.000000000000000000, 1.000000000000000000, 0.000000000000000000 ) ) ;
#98 = EDGE_LOOP ( 'NONE', ( #12 ) ) ;
#99 = ADVANCED_FACE ( 'NONE', ( #51, #47 ), #78, .T. ) ;
#100 = ORGANIZATION ( 'NON SPECIFICATO', 'NON SPECIFICATO', '' ) ;
#101 = VERTEX_POINT ( 'NONE', #153 ) ;
#102 = APPLICATION_PROTOCOL_DEFINITION ( 'international standard', 'config_control_design', 1994, #90 ) ;
#103 = DIRECTION ( 'NONE',  ( -0.000000000000000000, -1.000000000000000000, -0.000000000000000000 ) ) ;
#104 = PERSON_AND_ORGANIZATION_ROLE ( 'creator' ) ;
#105 = DATE_AND_TIME ( #172, #80 ) ;
#106 = ORIENTED_EDGE ( 'NONE', *, *, #3, .T. ) ;
#107 = DIRECTION ( 'NONE',  ( 0.000000000000000000, -1.000000000000000000, -0.000000000000000000 ) ) ;
#108 = AXIS2_PLACEMENT_3D ( 'NONE', #69, #137, #83 ) ;
#109 = COORDINATED_UNIVERSAL_TIME_OFFSET ( 1, 0, .AHEAD. ) ;
#110 = CIRCLE ( 'NONE', #31, 10.50000000000000000 ) ;
#111 = LOCAL_TIME ( 11, 1, 56.00000000000000000, #174 ) ;
#112 = CARTESIAN_POINT ( 'NONE',  ( 0.000000000000000000, 0.000000000000000000, 0.000000000000000000 ) ) ;
#113 = ADVANCED_FACE ( 'NONE', ( #164, #135 ), #14, .T. ) ;
#114 = CC_DESIGN_PERSON_AND_ORGANIZATION_ASSIGNMENT ( #11, #62, ( #95 ) ) ;
#115 = AXIS2_PLACEMENT_3D ( 'NONE', #50, #46, #33 ) ;
#116 = DATE_AND_TIME ( #74, #21 ) ;
#117 = SHAPE_DEFINITION_REPRESENTATION ( #138, #163 ) ;
#118 = DIRECTION ( 'NONE',  ( -0.000000000000000000, -1.000000000000000000, -0.000000000000000000 ) ) ;
#119 = EDGE_LOOP ( 'NONE', ( #25 ) ) ;
#120 = MANIFOLD_SOLID_BREP ( 'Rivoluzione1', #165 ) ;
#121 = CC_DESIGN_APPROVAL ( #48, ( #95 ) ) ;
#122 = APPROVAL_PERSON_ORGANIZATION ( #157, #43, #130 ) ;
#123 = CARTESIAN_POINT ( 'NONE',  ( 0.000000000000000000, 15.00000000000000000, -35.00000000000002842 ) ) ;
#124 = DIRECTION ( 'NONE',  ( 0.000000000000000000, 0.000000000000000000, 1.000000000000000000 ) ) ;
#125 = APPLICATION_PROTOCOL_DEFINITION ( 'international standard', 'config_control_design', 1994, #39 ) ;
#126 = DIRECTION ( 'NONE',  ( -0.000000000000000000, -1.000000000000000000, -0.000000000000000000 ) ) ;
#127 = FACE_OUTER_BOUND ( 'NONE', #2, .T. ) ;
#128 = LOCAL_TIME ( 11, 1, 56.00000000000000000, #161 ) ;
#129 = ADVANCED_FACE ( 'NONE', ( #28, #127 ), #168, .T. ) ;
#130 = APPROVAL_ROLE ( '' ) ;
#131 = PERSON_AND_ORGANIZATION ( #171, #100 ) ;
#132 = EDGE_LOOP ( 'NONE', ( #173 ) ) ;
#133 = EDGE_CURVE ( 'NONE', #81, #81, #110, .T. ) ;
#134 = DIRECTION ( 'NONE',  ( -0.000000000000000000, -1.000000000000000000, -0.000000000000000000 ) ) ;
#135 = FACE_OUTER_BOUND ( 'NONE', #132, .T. ) ;
#136 = AXIS2_PLACEMENT_3D ( 'NONE', #147, #97, #23 ) ;
#137 = DIRECTION ( 'NONE',  ( -0.000000000000000000, -1.000000000000000000, -0.000000000000000000 ) ) ;
#138 = PRODUCT_DEFINITION_SHAPE ( 'NONE', 'NONE',  #68 ) ;
#139 = PERSON_AND_ORGANIZATION_ROLE ( 'design_owner' ) ;
#140 = APPROVAL_PERSON_ORGANIZATION ( #131, #48, #7 ) ;
#141 =( NAMED_UNIT ( * ) SI_UNIT ( $, .STERADIAN. ) SOLID_ANGLE_UNIT ( ) );
#142 = AXIS2_PLACEMENT_3D ( 'NONE', #26, #103, #38 ) ;
#143 = PERSON_AND_ORGANIZATION ( #171, #100 ) ;
#144 = CC_DESIGN_PERSON_AND_ORGANIZATION_ASSIGNMENT ( #49, #104, ( #68 ) ) ;
#145 = COORDINATED_UNIVERSAL_TIME_OFFSET ( 1, 0, .AHEAD. ) ;
#146 = EDGE_CURVE ( 'NONE', #101, #101, #56, .T. ) ;
#147 = CARTESIAN_POINT ( 'NONE',  ( 10.50000000000000000, 1615.000000000000000, 0.000000000000000000 ) ) ;
#148 = APPROVAL_DATE_TIME ( #105, #48 ) ;
#149 = EDGE_LOOP ( 'NONE', ( #79 ) ) ;
#150 = CARTESIAN_POINT ( 'NONE',  ( 0.000000000000000000, 14.99999999999999645, 0.000000000000000000 ) ) ;
#151 = APPROVAL ( #54, 'NON SPECIFICATO' ) ;
#152 = FACE_OUTER_BOUND ( 'NONE', #61, .T. ) ;
#153 = CARTESIAN_POINT ( 'NONE',  ( 0.000000000000000000, 0.000000000000000000, -35.00000000000002842 ) ) ;
#154 = COORDINATED_UNIVERSAL_TIME_OFFSET ( 1, 0, .AHEAD. ) ;
#155 = AXIS2_PLACEMENT_3D ( 'NONE', #19, #107, #27 ) ;
#156 = DESIGN_CONTEXT ( 'detailed design', #39, 'design' ) ;
#157 = PERSON_AND_ORGANIZATION ( #171, #100 ) ;
#158 = DATE_TIME_ROLE ( 'classification_date' ) ;
#159 = ADVANCED_FACE ( 'NONE', ( #152 ), #53, .T. ) ;
#160 = EDGE_LOOP ( 'NONE', ( #35 ) ) ;
#161 = COORDINATED_UNIVERSAL_TIME_OFFSET ( 1, 0, .AHEAD. ) ;
#162 = CARTESIAN_POINT ( 'NONE',  ( 0.000000000000000000, 0.000000000000000000, 0.000000000000000000 ) ) ;
#163 = ADVANCED_BREP_SHAPE_REPRESENTATION ( '9921H910', ( #120, #29 ), #89 ) ;
#164 = FACE_OUTER_BOUND ( 'NONE', #119, .T. ) ;
#165 = CLOSED_SHELL ( 'NONE', ( #159, #99, #129, #113, #60 ) ) ;
#166 = DIRECTION ( 'NONE',  ( 1.000000000000000000, 0.000000000000000000, 0.000000000000000000 ) ) ;
#167 = CC_DESIGN_DATE_AND_TIME_ASSIGNMENT ( #116, #158, ( #95 ) ) ;
#168 = PLANE ( 'NONE',  #65 ) ;
#169 = PERSON_AND_ORGANIZATION ( #171, #100 ) ;
#170 = APPROVAL_DATE_TIME ( #57, #151 ) ;
#171 = PERSON ( 'NON SPECIFICATO', 'NON SPECIFICATO', 'NON SPECIFICATO', ('NON SPECIFICATO'), ('NON SPECIFICATO'), ('NON SPECIFICATO') ) ;
#172 = CALENDAR_DATE ( 2023, 10, 2 ) ;
#173 = ORIENTED_EDGE ( 'NONE', *, *, #133, .F. ) ;
#174 = COORDINATED_UNIVERSAL_TIME_OFFSET ( 1, 0, .AHEAD. ) ;
#175 = DIRECTION ( 'NONE',  ( 0.000000000000000000, 0.000000000000000000, -1.000000000000000000 ) ) ;
ENDSEC;
END-ISO-10303-21;
